ISO-10303-21;
HEADER;
/* Generated by software containing ST-Developer
 * from STEP Tools, Inc. (www.steptools.com) 
 */

FILE_DESCRIPTION(
/* description */ (''),
/* implementation_level */ '2;1');

FILE_NAME(
/* name */ 'C:/Users/ebredder/Desktop/TormachTTS-30mmWrench v2.step',
/* time_stamp */ '2019-02-26T17:04:09-05:00',
/* author */ ('ebredderAV3T4'),
/* organization */ (''),
/* preprocessor_version */ 'ST-DEVELOPER v17.2',
/* originating_system */ 'Autodesk Translation Framework v7.6.0.251',
/* authorisation */ '');

FILE_SCHEMA (('AUTOMOTIVE_DESIGN { 1 0 10303 214 3 1 1 }'));
ENDSEC;

DATA;
#10=MECHANICAL_DESIGN_GEOMETRIC_PRESENTATION_REPRESENTATION('',(#17),#477);
#11=ITEM_DEFINED_TRANSFORMATION($,$,#285,#312);
#12=(
REPRESENTATION_RELATIONSHIP($,$,#488,#487)
REPRESENTATION_RELATIONSHIP_WITH_TRANSFORMATION(#11)
SHAPE_REPRESENTATION_RELATIONSHIP()
);
#13=CONTEXT_DEPENDENT_SHAPE_REPRESENTATION(#12,#486);
#14=NEXT_ASSEMBLY_USAGE_OCCURRENCE('Component1:1','Component1:1',
'Component1:1',#490,#491,'Component1:1');
#15=SHAPE_REPRESENTATION_RELATIONSHIP('SRR','None',#488,#16);
#16=ADVANCED_BREP_SHAPE_REPRESENTATION('',(#18),#476);
#17=STYLED_ITEM('',(#501),#18);
#18=MANIFOLD_SOLID_BREP('Body1',#271);
#19=FACE_BOUND('',#56,.T.);
#20=FACE_BOUND('',#58,.T.);
#21=PLANE('',#295);
#22=PLANE('',#299);
#23=PLANE('',#300);
#24=PLANE('',#301);
#25=PLANE('',#302);
#26=PLANE('',#309);
#27=PLANE('',#310);
#28=PLANE('',#311);
#29=FACE_OUTER_BOUND('',#43,.T.);
#30=FACE_OUTER_BOUND('',#44,.T.);
#31=FACE_OUTER_BOUND('',#45,.T.);
#32=FACE_OUTER_BOUND('',#46,.T.);
#33=FACE_OUTER_BOUND('',#47,.T.);
#34=FACE_OUTER_BOUND('',#48,.T.);
#35=FACE_OUTER_BOUND('',#49,.T.);
#36=FACE_OUTER_BOUND('',#50,.T.);
#37=FACE_OUTER_BOUND('',#51,.T.);
#38=FACE_OUTER_BOUND('',#52,.T.);
#39=FACE_OUTER_BOUND('',#53,.T.);
#40=FACE_OUTER_BOUND('',#54,.T.);
#41=FACE_OUTER_BOUND('',#55,.T.);
#42=FACE_OUTER_BOUND('',#57,.T.);
#43=EDGE_LOOP('',(#179,#180,#181,#182));
#44=EDGE_LOOP('',(#183,#184,#185,#186));
#45=EDGE_LOOP('',(#187,#188,#189,#190));
#46=EDGE_LOOP('',(#191,#192,#193,#194));
#47=EDGE_LOOP('',(#195,#196,#197,#198));
#48=EDGE_LOOP('',(#199,#200,#201,#202));
#49=EDGE_LOOP('',(#203,#204,#205,#206));
#50=EDGE_LOOP('',(#207,#208,#209,#210));
#51=EDGE_LOOP('',(#211,#212,#213,#214));
#52=EDGE_LOOP('',(#215,#216,#217,#218));
#53=EDGE_LOOP('',(#219,#220,#221,#222));
#54=EDGE_LOOP('',(#223,#224,#225,#226));
#55=EDGE_LOOP('',(#227,#228,#229,#230,#231,#232,#233,#234,#235,#236,#237));
#56=EDGE_LOOP('',(#238));
#57=EDGE_LOOP('',(#239,#240,#241,#242,#243,#244,#245,#246,#247,#248,#249));
#58=EDGE_LOOP('',(#250));
#59=LINE('',#402,#83);
#60=LINE('',#405,#84);
#61=LINE('',#410,#85);
#62=LINE('',#417,#86);
#63=LINE('',#420,#87);
#64=LINE('',#423,#88);
#65=LINE('',#425,#89);
#66=LINE('',#426,#90);
#67=LINE('',#431,#91);
#68=LINE('',#436,#92);
#69=LINE('',#438,#93);
#70=LINE('',#440,#94);
#71=LINE('',#441,#95);
#72=LINE('',#444,#96);
#73=LINE('',#446,#97);
#74=LINE('',#447,#98);
#75=LINE('',#449,#99);
#76=LINE('',#450,#100);
#77=LINE('',#453,#101);
#78=LINE('',#455,#102);
#79=LINE('',#456,#103);
#80=LINE('',#464,#104);
#81=LINE('',#467,#105);
#82=LINE('',#468,#106);
#83=VECTOR('',#321,10.);
#84=VECTOR('',#324,10.);
#85=VECTOR('',#329,10.);
#86=VECTOR('',#336,10.);
#87=VECTOR('',#339,10.);
#88=VECTOR('',#342,10.);
#89=VECTOR('',#343,10.);
#90=VECTOR('',#344,10.);
#91=VECTOR('',#349,6.);
#92=VECTOR('',#354,10.);
#93=VECTOR('',#355,10.);
#94=VECTOR('',#356,10.);
#95=VECTOR('',#357,10.);
#96=VECTOR('',#360,10.);
#97=VECTOR('',#361,10.);
#98=VECTOR('',#362,10.);
#99=VECTOR('',#365,10.);
#100=VECTOR('',#366,10.);
#101=VECTOR('',#369,10.);
#102=VECTOR('',#370,10.);
#103=VECTOR('',#371,10.);
#104=VECTOR('',#382,10.);
#105=VECTOR('',#387,10.);
#106=VECTOR('',#388,10.);
#107=CIRCLE('',#287,12.5);
#108=CIRCLE('',#288,12.5);
#109=CIRCLE('',#290,35.);
#110=CIRCLE('',#291,35.);
#111=CIRCLE('',#293,12.5);
#112=CIRCLE('',#294,12.5);
#113=CIRCLE('',#297,6.);
#114=CIRCLE('',#298,6.);
#115=CIRCLE('',#304,15.);
#116=CIRCLE('',#305,15.);
#117=CIRCLE('',#307,35.);
#118=CIRCLE('',#308,35.);
#119=VERTEX_POINT('',#398);
#120=VERTEX_POINT('',#399);
#121=VERTEX_POINT('',#401);
#122=VERTEX_POINT('',#403);
#123=VERTEX_POINT('',#407);
#124=VERTEX_POINT('',#409);
#125=VERTEX_POINT('',#413);
#126=VERTEX_POINT('',#414);
#127=VERTEX_POINT('',#416);
#128=VERTEX_POINT('',#418);
#129=VERTEX_POINT('',#422);
#130=VERTEX_POINT('',#424);
#131=VERTEX_POINT('',#428);
#132=VERTEX_POINT('',#430);
#133=VERTEX_POINT('',#434);
#134=VERTEX_POINT('',#435);
#135=VERTEX_POINT('',#437);
#136=VERTEX_POINT('',#439);
#137=VERTEX_POINT('',#443);
#138=VERTEX_POINT('',#445);
#139=VERTEX_POINT('',#452);
#140=VERTEX_POINT('',#454);
#141=VERTEX_POINT('',#461);
#142=VERTEX_POINT('',#463);
#143=EDGE_CURVE('',#119,#120,#107,.T.);
#144=EDGE_CURVE('',#120,#121,#59,.T.);
#145=EDGE_CURVE('',#121,#122,#108,.T.);
#146=EDGE_CURVE('',#122,#119,#60,.T.);
#147=EDGE_CURVE('',#120,#123,#109,.T.);
#148=EDGE_CURVE('',#123,#124,#61,.T.);
#149=EDGE_CURVE('',#121,#124,#110,.T.);
#150=EDGE_CURVE('',#125,#126,#111,.T.);
#151=EDGE_CURVE('',#126,#127,#62,.T.);
#152=EDGE_CURVE('',#127,#128,#112,.T.);
#153=EDGE_CURVE('',#128,#125,#63,.T.);
#154=EDGE_CURVE('',#126,#129,#64,.T.);
#155=EDGE_CURVE('',#129,#130,#65,.T.);
#156=EDGE_CURVE('',#127,#130,#66,.T.);
#157=EDGE_CURVE('',#131,#131,#113,.T.);
#158=EDGE_CURVE('',#131,#132,#67,.T.);
#159=EDGE_CURVE('',#132,#132,#114,.T.);
#160=EDGE_CURVE('',#133,#134,#68,.T.);
#161=EDGE_CURVE('',#133,#135,#69,.T.);
#162=EDGE_CURVE('',#136,#135,#70,.T.);
#163=EDGE_CURVE('',#134,#136,#71,.T.);
#164=EDGE_CURVE('',#134,#137,#72,.T.);
#165=EDGE_CURVE('',#138,#136,#73,.T.);
#166=EDGE_CURVE('',#137,#138,#74,.T.);
#167=EDGE_CURVE('',#137,#123,#75,.T.);
#168=EDGE_CURVE('',#124,#138,#76,.T.);
#169=EDGE_CURVE('',#139,#122,#77,.T.);
#170=EDGE_CURVE('',#140,#139,#78,.T.);
#171=EDGE_CURVE('',#119,#140,#79,.T.);
#172=EDGE_CURVE('',#129,#140,#115,.T.);
#173=EDGE_CURVE('',#130,#139,#116,.T.);
#174=EDGE_CURVE('',#141,#128,#117,.T.);
#175=EDGE_CURVE('',#142,#141,#80,.T.);
#176=EDGE_CURVE('',#142,#125,#118,.T.);
#177=EDGE_CURVE('',#133,#142,#81,.T.);
#178=EDGE_CURVE('',#135,#141,#82,.T.);
#179=ORIENTED_EDGE('',*,*,#143,.T.);
#180=ORIENTED_EDGE('',*,*,#144,.T.);
#181=ORIENTED_EDGE('',*,*,#145,.T.);
#182=ORIENTED_EDGE('',*,*,#146,.T.);
#183=ORIENTED_EDGE('',*,*,#144,.F.);
#184=ORIENTED_EDGE('',*,*,#147,.T.);
#185=ORIENTED_EDGE('',*,*,#148,.T.);
#186=ORIENTED_EDGE('',*,*,#149,.F.);
#187=ORIENTED_EDGE('',*,*,#150,.T.);
#188=ORIENTED_EDGE('',*,*,#151,.T.);
#189=ORIENTED_EDGE('',*,*,#152,.T.);
#190=ORIENTED_EDGE('',*,*,#153,.T.);
#191=ORIENTED_EDGE('',*,*,#151,.F.);
#192=ORIENTED_EDGE('',*,*,#154,.T.);
#193=ORIENTED_EDGE('',*,*,#155,.T.);
#194=ORIENTED_EDGE('',*,*,#156,.F.);
#195=ORIENTED_EDGE('',*,*,#157,.F.);
#196=ORIENTED_EDGE('',*,*,#158,.T.);
#197=ORIENTED_EDGE('',*,*,#159,.T.);
#198=ORIENTED_EDGE('',*,*,#158,.F.);
#199=ORIENTED_EDGE('',*,*,#160,.F.);
#200=ORIENTED_EDGE('',*,*,#161,.T.);
#201=ORIENTED_EDGE('',*,*,#162,.F.);
#202=ORIENTED_EDGE('',*,*,#163,.F.);
#203=ORIENTED_EDGE('',*,*,#164,.F.);
#204=ORIENTED_EDGE('',*,*,#163,.T.);
#205=ORIENTED_EDGE('',*,*,#165,.F.);
#206=ORIENTED_EDGE('',*,*,#166,.F.);
#207=ORIENTED_EDGE('',*,*,#167,.F.);
#208=ORIENTED_EDGE('',*,*,#166,.T.);
#209=ORIENTED_EDGE('',*,*,#168,.F.);
#210=ORIENTED_EDGE('',*,*,#148,.F.);
#211=ORIENTED_EDGE('',*,*,#146,.F.);
#212=ORIENTED_EDGE('',*,*,#169,.F.);
#213=ORIENTED_EDGE('',*,*,#170,.F.);
#214=ORIENTED_EDGE('',*,*,#171,.F.);
#215=ORIENTED_EDGE('',*,*,#172,.T.);
#216=ORIENTED_EDGE('',*,*,#170,.T.);
#217=ORIENTED_EDGE('',*,*,#173,.F.);
#218=ORIENTED_EDGE('',*,*,#155,.F.);
#219=ORIENTED_EDGE('',*,*,#153,.F.);
#220=ORIENTED_EDGE('',*,*,#174,.F.);
#221=ORIENTED_EDGE('',*,*,#175,.F.);
#222=ORIENTED_EDGE('',*,*,#176,.T.);
#223=ORIENTED_EDGE('',*,*,#177,.T.);
#224=ORIENTED_EDGE('',*,*,#175,.T.);
#225=ORIENTED_EDGE('',*,*,#178,.F.);
#226=ORIENTED_EDGE('',*,*,#161,.F.);
#227=ORIENTED_EDGE('',*,*,#178,.T.);
#228=ORIENTED_EDGE('',*,*,#174,.T.);
#229=ORIENTED_EDGE('',*,*,#152,.F.);
#230=ORIENTED_EDGE('',*,*,#156,.T.);
#231=ORIENTED_EDGE('',*,*,#173,.T.);
#232=ORIENTED_EDGE('',*,*,#169,.T.);
#233=ORIENTED_EDGE('',*,*,#145,.F.);
#234=ORIENTED_EDGE('',*,*,#149,.T.);
#235=ORIENTED_EDGE('',*,*,#168,.T.);
#236=ORIENTED_EDGE('',*,*,#165,.T.);
#237=ORIENTED_EDGE('',*,*,#162,.T.);
#238=ORIENTED_EDGE('',*,*,#157,.T.);
#239=ORIENTED_EDGE('',*,*,#177,.F.);
#240=ORIENTED_EDGE('',*,*,#160,.T.);
#241=ORIENTED_EDGE('',*,*,#164,.T.);
#242=ORIENTED_EDGE('',*,*,#167,.T.);
#243=ORIENTED_EDGE('',*,*,#147,.F.);
#244=ORIENTED_EDGE('',*,*,#143,.F.);
#245=ORIENTED_EDGE('',*,*,#171,.T.);
#246=ORIENTED_EDGE('',*,*,#172,.F.);
#247=ORIENTED_EDGE('',*,*,#154,.F.);
#248=ORIENTED_EDGE('',*,*,#150,.F.);
#249=ORIENTED_EDGE('',*,*,#176,.F.);
#250=ORIENTED_EDGE('',*,*,#159,.F.);
#251=CYLINDRICAL_SURFACE('',#286,12.5);
#252=CYLINDRICAL_SURFACE('',#289,35.);
#253=CYLINDRICAL_SURFACE('',#292,12.5);
#254=CYLINDRICAL_SURFACE('',#296,6.);
#255=CYLINDRICAL_SURFACE('',#303,15.);
#256=CYLINDRICAL_SURFACE('',#306,35.);
#257=ADVANCED_FACE('',(#29),#251,.F.);
#258=ADVANCED_FACE('',(#30),#252,.T.);
#259=ADVANCED_FACE('',(#31),#253,.F.);
#260=ADVANCED_FACE('',(#32),#21,.T.);
#261=ADVANCED_FACE('',(#33),#254,.F.);
#262=ADVANCED_FACE('',(#34),#22,.T.);
#263=ADVANCED_FACE('',(#35),#23,.T.);
#264=ADVANCED_FACE('',(#36),#24,.T.);
#265=ADVANCED_FACE('',(#37),#25,.T.);
#266=ADVANCED_FACE('',(#38),#255,.T.);
#267=ADVANCED_FACE('',(#39),#256,.T.);
#268=ADVANCED_FACE('',(#40),#26,.T.);
#269=ADVANCED_FACE('',(#41,#19),#27,.T.);
#270=ADVANCED_FACE('',(#42,#20),#28,.F.);
#271=CLOSED_SHELL('',(#257,#258,#259,#260,#261,#262,#263,#264,#265,#266,
#267,#268,#269,#270));
#272=DERIVED_UNIT_ELEMENT(#274,1.);
#273=DERIVED_UNIT_ELEMENT(#479,3.);
#274=(
MASS_UNIT()
NAMED_UNIT(*)
SI_UNIT(.KILO.,.GRAM.)
);
#275=DERIVED_UNIT((#272,#273));
#276=MEASURE_REPRESENTATION_ITEM('density measure',
POSITIVE_RATIO_MEASURE(7850.),#275);
#277=PROPERTY_DEFINITION_REPRESENTATION(#282,#279);
#278=PROPERTY_DEFINITION_REPRESENTATION(#283,#280);
#279=REPRESENTATION('material name',(#281),#476);
#280=REPRESENTATION('density',(#276),#476);
#281=DESCRIPTIVE_REPRESENTATION_ITEM('Steel','Steel');
#282=PROPERTY_DEFINITION('material property','material name',#491);
#283=PROPERTY_DEFINITION('material property','density of part',#491);
#284=AXIS2_PLACEMENT_3D('placement',#395,#313,#314);
#285=AXIS2_PLACEMENT_3D('placement',#396,#315,#316);
#286=AXIS2_PLACEMENT_3D('',#397,#317,#318);
#287=AXIS2_PLACEMENT_3D('',#400,#319,#320);
#288=AXIS2_PLACEMENT_3D('',#404,#322,#323);
#289=AXIS2_PLACEMENT_3D('',#406,#325,#326);
#290=AXIS2_PLACEMENT_3D('',#408,#327,#328);
#291=AXIS2_PLACEMENT_3D('',#411,#330,#331);
#292=AXIS2_PLACEMENT_3D('',#412,#332,#333);
#293=AXIS2_PLACEMENT_3D('',#415,#334,#335);
#294=AXIS2_PLACEMENT_3D('',#419,#337,#338);
#295=AXIS2_PLACEMENT_3D('',#421,#340,#341);
#296=AXIS2_PLACEMENT_3D('',#427,#345,#346);
#297=AXIS2_PLACEMENT_3D('',#429,#347,#348);
#298=AXIS2_PLACEMENT_3D('',#432,#350,#351);
#299=AXIS2_PLACEMENT_3D('',#433,#352,#353);
#300=AXIS2_PLACEMENT_3D('',#442,#358,#359);
#301=AXIS2_PLACEMENT_3D('',#448,#363,#364);
#302=AXIS2_PLACEMENT_3D('',#451,#367,#368);
#303=AXIS2_PLACEMENT_3D('',#457,#372,#373);
#304=AXIS2_PLACEMENT_3D('',#458,#374,#375);
#305=AXIS2_PLACEMENT_3D('',#459,#376,#377);
#306=AXIS2_PLACEMENT_3D('',#460,#378,#379);
#307=AXIS2_PLACEMENT_3D('',#462,#380,#381);
#308=AXIS2_PLACEMENT_3D('',#465,#383,#384);
#309=AXIS2_PLACEMENT_3D('',#466,#385,#386);
#310=AXIS2_PLACEMENT_3D('',#469,#389,#390);
#311=AXIS2_PLACEMENT_3D('',#470,#391,#392);
#312=AXIS2_PLACEMENT_3D('',#471,#393,#394);
#313=DIRECTION('axis',(0.,0.,1.));
#314=DIRECTION('refdir',(1.,0.,0.));
#315=DIRECTION('axis',(0.,0.,1.));
#316=DIRECTION('refdir',(1.,0.,0.));
#317=DIRECTION('center_axis',(0.,0.,1.));
#318=DIRECTION('ref_axis',(-0.888523316638639,0.458831467741123,0.));
#319=DIRECTION('center_axis',(0.,0.,-1.));
#320=DIRECTION('ref_axis',(-0.888523316638639,0.458831467741123,0.));
#321=DIRECTION('',(0.,0.,1.));
#322=DIRECTION('center_axis',(0.,0.,1.));
#323=DIRECTION('ref_axis',(-0.888523316638639,0.458831467741123,0.));
#324=DIRECTION('',(0.,0.,-1.));
#325=DIRECTION('center_axis',(0.,0.,1.));
#326=DIRECTION('ref_axis',(0.428571428571429,-0.903507902905251,0.));
#327=DIRECTION('center_axis',(0.,0.,1.));
#328=DIRECTION('ref_axis',(0.428571428571429,-0.903507902905251,0.));
#329=DIRECTION('',(0.,0.,1.));
#330=DIRECTION('center_axis',(0.,0.,1.));
#331=DIRECTION('ref_axis',(0.428571428571429,-0.903507902905251,0.));
#332=DIRECTION('center_axis',(0.,0.,1.));
#333=DIRECTION('ref_axis',(0.888523316638638,0.458831467741124,0.));
#334=DIRECTION('center_axis',(0.,0.,-1.));
#335=DIRECTION('ref_axis',(0.888523316638638,0.458831467741124,0.));
#336=DIRECTION('',(0.,0.,1.));
#337=DIRECTION('center_axis',(0.,0.,1.));
#338=DIRECTION('ref_axis',(0.888523316638638,0.458831467741124,0.));
#339=DIRECTION('',(0.,0.,-1.));
#340=DIRECTION('center_axis',(-1.,-6.64189431137857E-16,0.));
#341=DIRECTION('ref_axis',(6.64189431137857E-16,-1.,0.));
#342=DIRECTION('',(6.64189431137857E-16,-1.,0.));
#343=DIRECTION('',(0.,0.,1.));
#344=DIRECTION('',(6.64189431137857E-16,-1.,0.));
#345=DIRECTION('center_axis',(0.,0.,1.));
#346=DIRECTION('ref_axis',(1.,0.,0.));
#347=DIRECTION('center_axis',(0.,0.,-1.));
#348=DIRECTION('ref_axis',(1.,0.,0.));
#349=DIRECTION('',(0.,0.,-1.));
#350=DIRECTION('center_axis',(0.,0.,-1.));
#351=DIRECTION('ref_axis',(1.,0.,0.));
#352=DIRECTION('center_axis',(0.5,0.866025403784439,0.));
#353=DIRECTION('ref_axis',(-0.866025403784439,0.5,0.));
#354=DIRECTION('',(0.866025403784439,-0.5,0.));
#355=DIRECTION('',(0.,0.,1.));
#356=DIRECTION('',(-0.866025403784439,0.5,0.));
#357=DIRECTION('',(0.,0.,1.));
#358=DIRECTION('center_axis',(-0.5,0.866025403784439,0.));
#359=DIRECTION('ref_axis',(-0.866025403784439,-0.5,0.));
#360=DIRECTION('',(0.866025403784438,0.5,0.));
#361=DIRECTION('',(-0.866025403784438,-0.5,0.));
#362=DIRECTION('',(0.,0.,1.));
#363=DIRECTION('center_axis',(-1.,0.,0.));
#364=DIRECTION('ref_axis',(0.,-1.,0.));
#365=DIRECTION('',(0.,1.,0.));
#366=DIRECTION('',(0.,-1.,0.));
#367=DIRECTION('center_axis',(1.,6.29232092656917E-16,0.));
#368=DIRECTION('ref_axis',(-6.29232092656917E-16,1.,0.));
#369=DIRECTION('',(-6.29232092656917E-16,1.,0.));
#370=DIRECTION('',(0.,0.,1.));
#371=DIRECTION('',(6.29232092656917E-16,-1.,0.));
#372=DIRECTION('center_axis',(0.,0.,1.));
#373=DIRECTION('ref_axis',(-1.,-1.1842378929335E-15,0.));
#374=DIRECTION('center_axis',(0.,0.,1.));
#375=DIRECTION('ref_axis',(-1.,-1.1842378929335E-15,0.));
#376=DIRECTION('center_axis',(0.,0.,1.));
#377=DIRECTION('ref_axis',(-1.,-1.1842378929335E-15,0.));
#378=DIRECTION('center_axis',(0.,0.,1.));
#379=DIRECTION('ref_axis',(-0.42857142857143,0.903507902905251,0.));
#380=DIRECTION('center_axis',(0.,0.,1.));
#381=DIRECTION('ref_axis',(-0.42857142857143,0.903507902905251,0.));
#382=DIRECTION('',(0.,0.,1.));
#383=DIRECTION('center_axis',(0.,0.,1.));
#384=DIRECTION('ref_axis',(-0.42857142857143,0.903507902905251,0.));
#385=DIRECTION('center_axis',(1.,5.80192191796993E-16,0.));
#386=DIRECTION('ref_axis',(-5.80192191796993E-16,1.,0.));
#387=DIRECTION('',(-5.80192191796993E-16,1.,0.));
#388=DIRECTION('',(-5.80192191796993E-16,1.,0.));
#389=DIRECTION('center_axis',(0.,0.,1.));
#390=DIRECTION('ref_axis',(1.,0.,0.));
#391=DIRECTION('center_axis',(0.,0.,1.));
#392=DIRECTION('ref_axis',(1.,0.,0.));
#393=DIRECTION('',(0.,0.,1.));
#394=DIRECTION('',(1.,0.,0.));
#395=CARTESIAN_POINT('',(0.,0.,0.));
#396=CARTESIAN_POINT('',(0.,0.,0.));
#397=CARTESIAN_POINT('Origin',(27.5,-38.7298334620742,0.));
#398=CARTESIAN_POINT('',(15.,-38.7298334620742,0.));
#399=CARTESIAN_POINT('',(20.2631578947369,-28.5377720246862,0.));
#400=CARTESIAN_POINT('Origin',(27.5,-38.7298334620742,0.));
#401=CARTESIAN_POINT('',(20.2631578947369,-28.5377720246862,6.35));
#402=CARTESIAN_POINT('',(20.2631578947369,-28.5377720246862,0.));
#403=CARTESIAN_POINT('',(15.,-38.7298334620742,6.35));
#404=CARTESIAN_POINT('Origin',(27.5,-38.7298334620742,6.35));
#405=CARTESIAN_POINT('',(15.,-38.7298334620742,0.));
#406=CARTESIAN_POINT('Origin',(0.,0.,0.));
#407=CARTESIAN_POINT('',(15.,31.6227766016838,0.));
#408=CARTESIAN_POINT('Origin',(0.,0.,0.));
#409=CARTESIAN_POINT('',(15.,31.6227766016838,6.35));
#410=CARTESIAN_POINT('',(15.,31.6227766016838,0.));
#411=CARTESIAN_POINT('Origin',(0.,0.,6.35));
#412=CARTESIAN_POINT('Origin',(-27.5,-38.7298334620742,0.));
#413=CARTESIAN_POINT('',(-20.2631578947368,-28.5377720246862,0.));
#414=CARTESIAN_POINT('',(-15.,-38.7298334620742,0.));
#415=CARTESIAN_POINT('Origin',(-27.5,-38.7298334620742,0.));
#416=CARTESIAN_POINT('',(-15.,-38.7298334620742,6.35));
#417=CARTESIAN_POINT('',(-15.,-38.7298334620742,0.));
#418=CARTESIAN_POINT('',(-20.2631578947368,-28.5377720246862,6.35));
#419=CARTESIAN_POINT('Origin',(-27.5,-38.7298334620742,6.35));
#420=CARTESIAN_POINT('',(-20.2631578947368,-28.5377720246862,0.));
#421=CARTESIAN_POINT('Origin',(-15.,-31.6227766016838,0.));
#422=CARTESIAN_POINT('',(-14.9999999999999,-158.660254037844,0.));
#423=CARTESIAN_POINT('',(-15.,-31.6227766016838,0.));
#424=CARTESIAN_POINT('',(-14.9999999999999,-158.660254037844,6.35));
#425=CARTESIAN_POINT('',(-14.9999999999999,-158.660254037844,0.));
#426=CARTESIAN_POINT('',(-15.,-31.6227766016838,6.35));
#427=CARTESIAN_POINT('Origin',(8.43769498715119E-14,-158.660254037844,0.));
#428=CARTESIAN_POINT('',(-5.99999999999992,-158.660254037844,6.35));
#429=CARTESIAN_POINT('Origin',(8.43769498715119E-14,-158.660254037844,6.35));
#430=CARTESIAN_POINT('',(-5.99999999999992,-158.660254037844,0.));
#431=CARTESIAN_POINT('',(-5.99999999999992,-158.660254037844,0.));
#432=CARTESIAN_POINT('Origin',(8.43769498715119E-14,-158.660254037844,0.));
#433=CARTESIAN_POINT('Origin',(1.55431223447522E-14,-17.3205080756888,0.));
#434=CARTESIAN_POINT('',(-15.,-8.66025403784442,0.));
#435=CARTESIAN_POINT('',(1.4432899320127E-14,-17.3205080756888,0.));
#436=CARTESIAN_POINT('',(-15.,-8.66025403784442,0.));
#437=CARTESIAN_POINT('',(-15.,-8.66025403784443,6.35));
#438=CARTESIAN_POINT('',(-15.,-8.66025403784442,0.));
#439=CARTESIAN_POINT('',(1.4432899320127E-14,-17.3205080756888,6.35));
#440=CARTESIAN_POINT('',(-15.,-8.66025403784442,6.35));
#441=CARTESIAN_POINT('',(1.4432899320127E-14,-17.3205080756888,0.));
#442=CARTESIAN_POINT('Origin',(15.,-8.66025403784445,0.));
#443=CARTESIAN_POINT('',(15.,-8.66025403784445,0.));
#444=CARTESIAN_POINT('',(1.4432899320127E-14,-17.3205080756888,0.));
#445=CARTESIAN_POINT('',(15.,-8.66025403784445,6.35));
#446=CARTESIAN_POINT('',(1.4432899320127E-14,-17.3205080756888,6.35));
#447=CARTESIAN_POINT('',(15.,-8.66025403784445,0.));
#448=CARTESIAN_POINT('Origin',(15.,31.6227766016838,0.));
#449=CARTESIAN_POINT('',(15.,8.66025403784439,0.));
#450=CARTESIAN_POINT('',(15.,8.66025403784439,6.35));
#451=CARTESIAN_POINT('Origin',(15.0000000000001,-158.660254037844,0.));
#452=CARTESIAN_POINT('',(15.0000000000001,-158.660254037844,6.35));
#453=CARTESIAN_POINT('',(15.,-31.6227766016838,6.35));
#454=CARTESIAN_POINT('',(15.0000000000001,-158.660254037844,0.));
#455=CARTESIAN_POINT('',(15.0000000000001,-158.660254037844,0.));
#456=CARTESIAN_POINT('',(15.,-31.6227766016838,0.));
#457=CARTESIAN_POINT('Origin',(8.43769498715119E-14,-158.660254037844,0.));
#458=CARTESIAN_POINT('Origin',(8.43769498715119E-14,-158.660254037844,0.));
#459=CARTESIAN_POINT('Origin',(8.43769498715119E-14,-158.660254037844,6.35));
#460=CARTESIAN_POINT('Origin',(0.,0.,0.));
#461=CARTESIAN_POINT('',(-15.,31.6227766016838,6.35));
#462=CARTESIAN_POINT('Origin',(0.,0.,6.35));
#463=CARTESIAN_POINT('',(-15.,31.6227766016838,0.));
#464=CARTESIAN_POINT('',(-15.,31.6227766016838,0.));
#465=CARTESIAN_POINT('Origin',(0.,0.,0.));
#466=CARTESIAN_POINT('Origin',(-15.,-8.66025403784442,0.));
#467=CARTESIAN_POINT('',(-15.,8.66025403784438,0.));
#468=CARTESIAN_POINT('',(-15.,8.66025403784438,6.35));
#469=CARTESIAN_POINT('Origin',(4.44089209850063E-15,-71.0187387180803,6.35));
#470=CARTESIAN_POINT('Origin',(4.44089209850063E-15,-71.0187387180803,0.));
#471=CARTESIAN_POINT('',(0.,0.,0.));
#472=UNCERTAINTY_MEASURE_WITH_UNIT(LENGTH_MEASURE(0.01),#478,
'DISTANCE_ACCURACY_VALUE',
'Maximum model space distance between geometric entities at asserted c
onnectivities');
#473=UNCERTAINTY_MEASURE_WITH_UNIT(LENGTH_MEASURE(0.01),#478,
'DISTANCE_ACCURACY_VALUE',
'Maximum model space distance between geometric entities at asserted c
onnectivities');
#474=UNCERTAINTY_MEASURE_WITH_UNIT(LENGTH_MEASURE(0.01),#478,
'DISTANCE_ACCURACY_VALUE',
'Maximum model space distance between geometric entities at asserted c
onnectivities');
#475=(
GEOMETRIC_REPRESENTATION_CONTEXT(3)
GLOBAL_UNCERTAINTY_ASSIGNED_CONTEXT((#472))
GLOBAL_UNIT_ASSIGNED_CONTEXT((#478,#480,#481))
REPRESENTATION_CONTEXT('','3D')
);
#476=(
GEOMETRIC_REPRESENTATION_CONTEXT(3)
GLOBAL_UNCERTAINTY_ASSIGNED_CONTEXT((#473))
GLOBAL_UNIT_ASSIGNED_CONTEXT((#478,#480,#481))
REPRESENTATION_CONTEXT('','3D')
);
#477=(
GEOMETRIC_REPRESENTATION_CONTEXT(3)
GLOBAL_UNCERTAINTY_ASSIGNED_CONTEXT((#474))
GLOBAL_UNIT_ASSIGNED_CONTEXT((#478,#480,#481))
REPRESENTATION_CONTEXT('','3D')
);
#478=(
LENGTH_UNIT()
NAMED_UNIT(*)
SI_UNIT(.MILLI.,.METRE.)
);
#479=(
LENGTH_UNIT()
NAMED_UNIT(*)
SI_UNIT($,.METRE.)
);
#480=(
NAMED_UNIT(*)
PLANE_ANGLE_UNIT()
SI_UNIT($,.RADIAN.)
);
#481=(
NAMED_UNIT(*)
SI_UNIT($,.STERADIAN.)
SOLID_ANGLE_UNIT()
);
#482=SHAPE_DEFINITION_REPRESENTATION(#484,#487);
#483=SHAPE_DEFINITION_REPRESENTATION(#485,#488);
#484=PRODUCT_DEFINITION_SHAPE('',$,#490);
#485=PRODUCT_DEFINITION_SHAPE('',$,#491);
#486=PRODUCT_DEFINITION_SHAPE($,$,#14);
#487=SHAPE_REPRESENTATION('',(#284,#312),#475);
#488=SHAPE_REPRESENTATION('',(#285),#476);
#489=PRODUCT_DEFINITION_CONTEXT('part definition',#497,'design');
#490=PRODUCT_DEFINITION('TormachTTS-30mmWrench',
'TormachTTS-30mmWrench v2',#492,#489);
#491=PRODUCT_DEFINITION('Component1','Component1',#493,#489);
#492=PRODUCT_DEFINITION_FORMATION('',$,#499);
#493=PRODUCT_DEFINITION_FORMATION('',$,#500);
#494=PRODUCT_RELATED_PRODUCT_CATEGORY('TormachTTS-30mmWrench v2',
'TormachTTS-30mmWrench v2',(#499));
#495=PRODUCT_RELATED_PRODUCT_CATEGORY('Component1','Component1',(#500));
#496=APPLICATION_PROTOCOL_DEFINITION('international standard',
'automotive_design',2009,#497);
#497=APPLICATION_CONTEXT(
'Core Data for Automotive Mechanical Design Process');
#498=PRODUCT_CONTEXT('part definition',#497,'mechanical');
#499=PRODUCT('TormachTTS-30mmWrench','TormachTTS-30mmWrench v2',$,(#498));
#500=PRODUCT('Component1','Component1',$,(#498));
#501=PRESENTATION_STYLE_ASSIGNMENT((#502));
#502=SURFACE_STYLE_USAGE(.BOTH.,#503);
#503=SURFACE_SIDE_STYLE('',(#504));
#504=SURFACE_STYLE_FILL_AREA(#505);
#505=FILL_AREA_STYLE('Steel - Satin',(#506));
#506=FILL_AREA_STYLE_COLOUR('Steel - Satin',#507);
#507=COLOUR_RGB('Steel - Satin',0.627450980392157,0.627450980392157,0.627450980392157);
ENDSEC;
END-ISO-10303-21;
